ISO-10303-21;
HEADER;
FILE_DESCRIPTION (( 'STEP AP203' ),
    '1' );
FILE_NAME ('QB-CTZQWP-25.4-795-M.STEP',
    '2020-12-24T01:51:25',
    ( '' ),
    ( '' ),
    'SwSTEP 2.0',
    'SolidWorks 2020',
    '' );
FILE_SCHEMA (( 'CONFIG_CONTROL_DESIGN' ));
ENDSEC;

DATA;
#1 = PERSON_AND_ORGANIZATION_ROLE ( 'creator' ) ;
#2 = AXIS2_PLACEMENT_3D ( 'NONE', #43, #78, #137 ) ;
#3 = PERSON_AND_ORGANIZATION ( #88, #90 ) ;
#4 = EDGE_CURVE ( 'NONE', #147, #76, #22, .T. ) ;
#5 = CALENDAR_DATE ( 2020, 24, 12 ) ;
#6 = CC_DESIGN_APPROVAL ( #145, ( #146 ) ) ;
#7 = EDGE_LOOP ( 'NONE', ( #150, #89, #19, #167 ) ) ;
#8 = COORDINATED_UNIVERSAL_TIME_OFFSET ( 8, 0, .AHEAD. ) ;
#9 = CARTESIAN_POINT ( 'NONE',  ( 3.000000000000000000, 1.836970198721029589E-15, -15.00000000000000000 ) ) ;
#10 = DATE_TIME_ROLE ( 'classification_date' ) ;
#11 = CARTESIAN_POINT ( 'NONE',  ( -3.000000000000000888, 12.69999999999999929, 0.000000000000000000 ) ) ;
#12 = CARTESIAN_POINT ( 'NONE',  ( 3.000000000000000000, 0.000000000000000000, 0.000000000000000000 ) ) ;
#13 = DATE_AND_TIME ( #64, #122 ) ;
#14 = PERSON_AND_ORGANIZATION ( #88, #90 ) ;
#15 = VECTOR ( 'NONE', #92, 1000.000000000000000 ) ;
#16 = EDGE_CURVE ( 'NONE', #36, #147, #60, .T. ) ;
#17 = VERTEX_POINT ( 'NONE', #25 ) ;
#18 = EDGE_LOOP ( 'NONE', ( #112, #111, #132, #20 ) ) ;
#19 = ORIENTED_EDGE ( 'NONE', *, *, #149, .F. ) ;
#20 = ORIENTED_EDGE ( 'NONE', *, *, #4, .F. ) ;
#21 = DIRECTION ( 'NONE',  ( 0.000000000000000000, 0.000000000000000000, 1.000000000000000000 ) ) ;
#22 = CIRCLE ( 'NONE', #69, 15.00000000000000000 ) ;
#23 = DIRECTION ( 'NONE',  ( -1.000000000000000000, 0.000000000000000000, -0.000000000000000000 ) ) ;
#24 = EDGE_CURVE ( 'NONE', #36, #17, #51, .T. ) ;
#25 = CARTESIAN_POINT ( 'NONE',  ( 3.000000000000000000, 0.000000000000000000, 15.00000000000000000 ) ) ;
#26 = UNCERTAINTY_MEASURE_WITH_UNIT (LENGTH_MEASURE( 1.000000000000000082E-05 ), #63, 'distance_accuracy_value', 'NONE');
#27 = APPROVAL_STATUS ( 'not_yet_approved' ) ;
#28 = CARTESIAN_POINT ( 'NONE',  ( 0.000000000000000000, 0.000000000000000000, 0.000000000000000000 ) ) ;
#29 = EDGE_CURVE ( 'NONE', #17, #76, #93, .T. ) ;
#30 = COORDINATED_UNIVERSAL_TIME_OFFSET ( 8, 0, .AHEAD. ) ;
#31 =( GEOMETRIC_REPRESENTATION_CONTEXT ( 3 ) GLOBAL_UNCERTAINTY_ASSIGNED_CONTEXT ( ( #26 ) ) GLOBAL_UNIT_ASSIGNED_CONTEXT ( ( #63, #118, #46 ) ) REPRESENTATION_CONTEXT ( 'NONE', 'WORKASPACE' ) );
#32 = PRODUCT_RELATED_PRODUCT_CATEGORY ( 'detail', '', ( #65 ) ) ;
#33 = ADVANCED_FACE ( 'NONE', ( #117 ), #160, .T. ) ;
#34 = ORIENTED_EDGE ( 'NONE', *, *, #149, .T. ) ;
#35 = PRODUCT_DEFINITION ( 'UNKNOWN', '', #86, #68 ) ;
#36 = VERTEX_POINT ( 'NONE', #9 ) ;
#37 = EDGE_LOOP ( 'NONE', ( #34, #123 ) ) ;
#38 = LOCAL_TIME ( 9, 51, 25.00000000000000000, #48 ) ;
#39 = DATE_AND_TIME ( #41, #54 ) ;
#40 = DIRECTION ( 'NONE',  ( -1.000000000000000000, -0.000000000000000000, -0.000000000000000000 ) ) ;
#41 = CALENDAR_DATE ( 2020, 24, 12 ) ;
#42 = DIRECTION ( 'NONE',  ( 0.000000000000000000, 0.000000000000000000, 1.000000000000000000 ) ) ;
#43 = CARTESIAN_POINT ( 'NONE',  ( 3.000000000000000000, 0.000000000000000000, 0.000000000000000000 ) ) ;
#44 = APPROVAL ( #142, 'UNSPECIFIED' ) ;
#45 = CYLINDRICAL_SURFACE ( 'NONE', #74, 15.00000000000000000 ) ;
#46 =( NAMED_UNIT ( * ) SI_UNIT ( $, .STERADIAN. ) SOLID_ANGLE_UNIT ( ) );
#47 = CALENDAR_DATE ( 2020, 24, 12 ) ;
#48 = COORDINATED_UNIVERSAL_TIME_OFFSET ( 8, 0, .AHEAD. ) ;
#49 = APPROVAL_ROLE ( '' ) ;
#50 = CC_DESIGN_PERSON_AND_ORGANIZATION_ASSIGNMENT ( #3, #119, ( #65 ) ) ;
#51 = CIRCLE ( 'NONE', #2, 15.00000000000000000 ) ;
#52 = CC_DESIGN_DATE_AND_TIME_ASSIGNMENT ( #107, #153, ( #35 ) ) ;
#53 = DIRECTION ( 'NONE',  ( -1.000000000000000000, -0.000000000000000000, -0.000000000000000000 ) ) ;
#54 = LOCAL_TIME ( 9, 51, 25.00000000000000000, #8 ) ;
#55 = APPROVAL_ROLE ( '' ) ;
#56 = PLANE ( 'NONE',  #61 ) ;
#57 = CC_DESIGN_PERSON_AND_ORGANIZATION_ASSIGNMENT ( #154, #1, ( #86 ) ) ;
#58 = PLANE ( 'NONE',  #129 ) ;
#59 = SHAPE_DEFINITION_REPRESENTATION ( #121, #73 ) ;
#60 = LINE ( 'NONE', #114, #116 ) ;
#61 = AXIS2_PLACEMENT_3D ( 'NONE', #170, #23, #113 ) ;
#62 = CLOSED_SHELL ( 'NONE', ( #94, #151, #33, #169 ) ) ;
#63 =( LENGTH_UNIT ( ) NAMED_UNIT ( * ) SI_UNIT ( .MILLI., .METRE. ) );
#64 = CALENDAR_DATE ( 2020, 24, 12 ) ;
#65 = PRODUCT ( 'QB-CTZQWP-25.4-795-M', 'QB-CTZQWP-25.4-795-M', '', ( #66 ) ) ;
#66 = MECHANICAL_CONTEXT ( 'NONE', #82, 'mechanical' ) ;
#67 = PERSON_AND_ORGANIZATION_ROLE ( 'design_supplier' ) ;
#68 = DESIGN_CONTEXT ( 'detailed design', #80, 'design' ) ;
#69 = AXIS2_PLACEMENT_3D ( 'NONE', #174, #161, #21 ) ;
#70 = APPROVAL_DATE_TIME ( #13, #87 ) ;
#71 = CC_DESIGN_PERSON_AND_ORGANIZATION_ASSIGNMENT ( #96, #164, ( #35 ) ) ;
#72 = AXIS2_PLACEMENT_3D ( 'NONE', #12, #159, #162 ) ;
#73 = ADVANCED_BREP_SHAPE_REPRESENTATION ( 'QB-CTZQWP-25.4-795-M', ( #91, #131 ), #31 ) ;
#74 = AXIS2_PLACEMENT_3D ( 'NONE', #106, #40, #81 ) ;
#75 = CC_DESIGN_APPROVAL ( #87, ( #35 ) ) ;
#76 = VERTEX_POINT ( 'NONE', #138 ) ;
#77 = CARTESIAN_POINT ( 'NONE',  ( -3.000000000000000000, 1.836970198721029589E-15, -15.00000000000000000 ) ) ;
#78 = DIRECTION ( 'NONE',  ( -1.000000000000000000, -0.000000000000000000, -0.000000000000000000 ) ) ;
#79 = APPROVAL_STATUS ( 'not_yet_approved' ) ;
#80 = APPLICATION_CONTEXT ( 'configuration controlled 3d designs of mechanical parts and assemblies' ) ;
#81 = DIRECTION ( 'NONE',  ( 0.000000000000000000, 0.000000000000000000, 1.000000000000000000 ) ) ;
#82 = APPLICATION_CONTEXT ( 'configuration controlled 3d designs of mechanical parts and assemblies' ) ;
#83 = APPROVAL_ROLE ( '' ) ;
#84 = COORDINATED_UNIVERSAL_TIME_OFFSET ( 8, 0, .AHEAD. ) ;
#85 = PERSON_AND_ORGANIZATION ( #88, #90 ) ;
#86 = PRODUCT_DEFINITION_FORMATION_WITH_SPECIFIED_SOURCE ( 'ANY', '', #65, .NOT_KNOWN. ) ;
#87 = APPROVAL ( #27, 'UNSPECIFIED' ) ;
#88 = PERSON ( 'UNSPECIFIED', 'UNSPECIFIED', 'UNSPECIFIED', ('UNSPECIFIED'), ('UNSPECIFIED'), ('UNSPECIFIED') ) ;
#89 = ORIENTED_EDGE ( 'NONE', *, *, #16, .T. ) ;
#90 = ORGANIZATION ( 'UNSPECIFIED', 'UNSPECIFIED', '' ) ;
#91 = MANIFOLD_SOLID_BREP ( 'Ðý×', #62 ) ;
#92 = DIRECTION ( 'NONE',  ( -1.000000000000000000, -0.000000000000000000, -0.000000000000000000 ) ) ;
#93 = LINE ( 'NONE', #125, #15 ) ;
#94 = ADVANCED_FACE ( 'NONE', ( #158 ), #45, .T. ) ;
#95 = PERSON_AND_ORGANIZATION ( #88, #90 ) ;
#96 = PERSON_AND_ORGANIZATION ( #88, #90 ) ;
#97 = LOCAL_TIME ( 9, 51, 25.00000000000000000, #130 ) ;
#98 = ORIENTED_EDGE ( 'NONE', *, *, #166, .F. ) ;
#99 = EDGE_LOOP ( 'NONE', ( #98, #135 ) ) ;
#100 = PERSON_AND_ORGANIZATION ( #88, #90 ) ;
#101 = FACE_OUTER_BOUND ( 'NONE', #37, .T. ) ;
#102 = DIRECTION ( 'NONE',  ( 1.000000000000000000, 0.000000000000000000, 0.000000000000000000 ) ) ;
#103 = CARTESIAN_POINT ( 'NONE',  ( -3.000000000000000000, 0.000000000000000000, 0.000000000000000000 ) ) ;
#104 = APPROVAL_PERSON_ORGANIZATION ( #95, #44, #83 ) ;
#105 = CIRCLE ( 'NONE', #72, 15.00000000000000000 ) ;
#106 = CARTESIAN_POINT ( 'NONE',  ( -1.614212418857619014, 0.000000000000000000, 0.000000000000000000 ) ) ;
#107 = DATE_AND_TIME ( #47, #148 ) ;
#108 = CC_DESIGN_APPROVAL ( #44, ( #86 ) ) ;
#109 = DATE_AND_TIME ( #127, #38 ) ;
#110 = APPROVAL_PERSON_ORGANIZATION ( #14, #87, #49 ) ;
#111 = ORIENTED_EDGE ( 'NONE', *, *, #24, .T. ) ;
#112 = ORIENTED_EDGE ( 'NONE', *, *, #16, .F. ) ;
#113 = DIRECTION ( 'NONE',  ( -0.000000000000000000, 0.000000000000000000, 1.000000000000000000 ) ) ;
#114 = CARTESIAN_POINT ( 'NONE',  ( -1.614212418857619014, 1.836970198721029589E-15, -15.00000000000000000 ) ) ;
#115 = APPROVAL_DATE_TIME ( #39, #145 ) ;
#116 = VECTOR ( 'NONE', #53, 1000.000000000000000 ) ;
#117 = FACE_OUTER_BOUND ( 'NONE', #18, .T. ) ;
#118 =( NAMED_UNIT ( * ) PLANE_ANGLE_UNIT ( ) SI_UNIT ( $, .RADIAN. ) );
#119 = PERSON_AND_ORGANIZATION_ROLE ( 'design_owner' ) ;
#120 = DIRECTION ( 'NONE',  ( 0.000000000000000000, 0.000000000000000000, 1.000000000000000000 ) ) ;
#121 = PRODUCT_DEFINITION_SHAPE ( 'NONE', 'NONE',  #35 ) ;
#122 = LOCAL_TIME ( 9, 51, 25.00000000000000000, #84 ) ;
#123 = ORIENTED_EDGE ( 'NONE', *, *, #4, .T. ) ;
#124 = CARTESIAN_POINT ( 'NONE',  ( -1.614212418857619014, 0.000000000000000000, 0.000000000000000000 ) ) ;
#125 = CARTESIAN_POINT ( 'NONE',  ( -1.614212418857619014, 0.000000000000000000, 15.00000000000000000 ) ) ;
#126 = DIRECTION ( 'NONE',  ( 0.000000000000000000, 0.000000000000000000, -1.000000000000000000 ) ) ;
#127 = CALENDAR_DATE ( 2020, 24, 12 ) ;
#128 = APPLICATION_PROTOCOL_DEFINITION ( 'international standard', 'config_control_design', 1994, #80 ) ;
#129 = AXIS2_PLACEMENT_3D ( 'NONE', #11, #102, #126 ) ;
#130 = COORDINATED_UNIVERSAL_TIME_OFFSET ( 8, 0, .AHEAD. ) ;
#131 = AXIS2_PLACEMENT_3D ( 'NONE', #28, #120, #155 ) ;
#132 = ORIENTED_EDGE ( 'NONE', *, *, #29, .T. ) ;
#133 = CC_DESIGN_PERSON_AND_ORGANIZATION_ASSIGNMENT ( #85, #157, ( #146 ) ) ;
#134 = AXIS2_PLACEMENT_3D ( 'NONE', #103, #173, #139 ) ;
#135 = ORIENTED_EDGE ( 'NONE', *, *, #24, .F. ) ;
#136 = DIRECTION ( 'NONE',  ( -1.000000000000000000, -0.000000000000000000, -0.000000000000000000 ) ) ;
#137 = DIRECTION ( 'NONE',  ( 0.000000000000000000, 0.000000000000000000, 1.000000000000000000 ) ) ;
#138 = CARTESIAN_POINT ( 'NONE',  ( -3.000000000000000000, 0.000000000000000000, 15.00000000000000000 ) ) ;
#139 = DIRECTION ( 'NONE',  ( 0.000000000000000000, 0.000000000000000000, 1.000000000000000000 ) ) ;
#140 = APPLICATION_PROTOCOL_DEFINITION ( 'international standard', 'config_control_design', 1994, #82 ) ;
#141 = APPROVAL_PERSON_ORGANIZATION ( #100, #145, #55 ) ;
#142 = APPROVAL_STATUS ( 'not_yet_approved' ) ;
#143 = PERSON_AND_ORGANIZATION ( #88, #90 ) ;
#144 = CIRCLE ( 'NONE', #134, 15.00000000000000000 ) ;
#145 = APPROVAL ( #79, 'UNSPECIFIED' ) ;
#146 = SECURITY_CLASSIFICATION ( '', '', #156 ) ;
#147 = VERTEX_POINT ( 'NONE', #77 ) ;
#148 = LOCAL_TIME ( 9, 51, 25.00000000000000000, #30 ) ;
#149 = EDGE_CURVE ( 'NONE', #76, #147, #144, .T. ) ;
#150 = ORIENTED_EDGE ( 'NONE', *, *, #166, .T. ) ;
#151 = ADVANCED_FACE ( 'NONE', ( #171 ), #56, .F. ) ;
#152 = AXIS2_PLACEMENT_3D ( 'NONE', #124, #136, #42 ) ;
#153 = DATE_TIME_ROLE ( 'creation_date' ) ;
#154 = PERSON_AND_ORGANIZATION ( #88, #90 ) ;
#155 = DIRECTION ( 'NONE',  ( 1.000000000000000000, 0.000000000000000000, 0.000000000000000000 ) ) ;
#156 = SECURITY_CLASSIFICATION_LEVEL ( 'unclassified' ) ;
#157 = PERSON_AND_ORGANIZATION_ROLE ( 'classification_officer' ) ;
#158 = FACE_OUTER_BOUND ( 'NONE', #7, .T. ) ;
#159 = DIRECTION ( 'NONE',  ( -1.000000000000000000, -0.000000000000000000, -0.000000000000000000 ) ) ;
#160 = CYLINDRICAL_SURFACE ( 'NONE', #152, 15.00000000000000000 ) ;
#161 = DIRECTION ( 'NONE',  ( -1.000000000000000000, -0.000000000000000000, -0.000000000000000000 ) ) ;
#162 = DIRECTION ( 'NONE',  ( 0.000000000000000000, 0.000000000000000000, 1.000000000000000000 ) ) ;
#163 = CC_DESIGN_DATE_AND_TIME_ASSIGNMENT ( #172, #10, ( #146 ) ) ;
#164 = PERSON_AND_ORGANIZATION_ROLE ( 'creator' ) ;
#165 = APPROVAL_DATE_TIME ( #109, #44 ) ;
#166 = EDGE_CURVE ( 'NONE', #17, #36, #105, .T. ) ;
#167 = ORIENTED_EDGE ( 'NONE', *, *, #29, .F. ) ;
#168 = CC_DESIGN_SECURITY_CLASSIFICATION ( #146, ( #86 ) ) ;
#169 = ADVANCED_FACE ( 'NONE', ( #101 ), #58, .F. ) ;
#170 = CARTESIAN_POINT ( 'NONE',  ( 3.000000000000000888, 12.69999999999999929, 0.000000000000000000 ) ) ;
#171 = FACE_OUTER_BOUND ( 'NONE', #99, .T. ) ;
#172 = DATE_AND_TIME ( #5, #97 ) ;
#173 = DIRECTION ( 'NONE',  ( -1.000000000000000000, -0.000000000000000000, -0.000000000000000000 ) ) ;
#174 = CARTESIAN_POINT ( 'NONE',  ( -3.000000000000000000, 0.000000000000000000, 0.000000000000000000 ) ) ;
#175 = CC_DESIGN_PERSON_AND_ORGANIZATION_ASSIGNMENT ( #143, #67, ( #86 ) ) ;
ENDSEC;
END-ISO-10303-21;
